  0
SECTION
  2
HEADER
  9
$ACADVER
  1
AC1015
  9
$ACADMAINTVER
 70
     6
  9
$DWGCODEPAGE
  3
ANSI_1254
  9
$INSBASE
 10
0.0
 20
0.0
 30
0.0
  9
$EXTMIN
 10
0.0
 20
0.0
 30
0.0
  9
$EXTMAX
 10
279.4
 20
215.9
 30
0.0
  9
$LIMMIN
 10
0.0
 20
0.0
  9
$LIMMAX
 10
279.4
 20
215.9
  9
$ORTHOMODE
 70
     0
  9
$REGENMODE
 70
     1
  9
$FILLMODE
 70
     1
  9
$QTEXTMODE
 70
     0
  9
$MIRRTEXT
 70
     1
  9
$LTSCALE
 40
1.0
  9
$ATTMODE
 70
     1
  9
$TEXTSIZE
 40
3.5
  9
$TRACEWID
 40
1.0
  9
$TEXTSTYLE
  7
Standard
  9
$CLAYER
  8
0
  9
$CELTYPE
  6
ByLayer
  9
$CECOLOR
 62
   256
  9
$CELTSCALE
 40
1.0
  9
$DISPSILH
 70
     0
  9
$DIMSCALE
 40
1.0
  9
$DIMASZ
 40
3.5
  9
$DIMEXO
 40
1.0
  9
$DIMDLI
 40
3.75
  9
$DIMRND
 40
0.0
  9
$DIMDLE
 40
0.0
  9
$DIMEXE
 40
1.0
  9
$DIMTP
 40
0.0
  9
$DIMTM
 40
0.0
  9
$DIMTXT
 40
3.5
  9
$DIMCEN
 40
2.5
  9
$DIMTSZ
 40
0.0
  9
$DIMTOL
 70
     0
  9
$DIMLIM
 70
     0
  9
$DIMTIH
 70
     1
  9
$DIMTOH
 70
     1
  9
$DIMSE1
 70
     0
  9
$DIMSE2
 70
     0
  9
$DIMTAD
 70
     1
  9
$DIMZIN
 70
     0
  9
$DIMBLK
  1

  9
$DIMASO
 70
     1
  9
$DIMSHO
 70
     1
  9
$DIMPOST
  1

  9
$DIMAPOST
  1

  9
$DIMALT
 70
     0
  9
$DIMALTD
 70
     3
  9
$DIMALTF
 40
0.0393700787
  9
$DIMLFAC
 40
1.0
  9
$DIMTOFL
 70
     1
  9
$DIMTVP
 40
0.0
  9
$DIMTIX
 70
     0
  9
$DIMSOXD
 70
     0
  9
$DIMSAH
 70
     0
  9
$DIMBLK1
  1

  9
$DIMBLK2
  1

  9
$DIMSTYLE
  2
ISO-25
  9
$DIMCLRD
 70
     0
  9
$DIMCLRE
 70
     0
  9
$DIMCLRT
 70
     0
  9
$DIMTFAC
 40
1.0
  9
$DIMGAP
 40
1.524
  9
$DIMJUST
 70
     0
  9
$DIMSD1
 70
     0
  9
$DIMSD2
 70
     0
  9
$DIMTOLJ
 70
     0
  9
$DIMTZIN
 70
     0
  9
$DIMALTZ
 70
     0
  9
$DIMALTTZ
 70
     0
  9
$DIMUPT
 70
     0
  9
$DIMDEC
 70
     2
  9
$DIMTDEC
 70
     2
  9
$DIMALTU
 70
     2
  9
$DIMALTTD
 70
     3
  9
$DIMTXSTY
  7
Standard
  9
$DIMAUNIT
 70
     0
  9
$DIMADEC
 70
     2
  9
$DIMALTRND
 40
0.0
  9
$DIMAZIN
 70
     0
  9
$DIMDSEP
 70
    44
  9
$DIMATFIT
 70
     3
  9
$DIMFRAC
 70
     0
  9
$DIMLDRBLK
  1

  9
$DIMLUNIT
 70
     2
  9
$DIMLWD
 70
    -2
  9
$DIMLWE
 70
    -2
  9
$DIMTMOVE
 70
     0
  9
$LUNITS
 70
     2
  9
$LUPREC
 70
     2
  9
$SKETCHINC
 40
1.0
  9
$FILLETRAD
 40
10.0
  9
$AUNITS
 70
     0
  9
$AUPREC
 70
     2
  9
$MENU
  1
.
  9
$ELEVATION
 40
0.0
  9
$PELEVATION
 40
0.0
  9
$THICKNESS
 40
0.0
  9
$LIMCHECK
 70
     0
  9
$CHAMFERA
 40
0.0
  9
$CHAMFERB
 40
0.0
  9
$CHAMFERC
 40
0.0
  9
$CHAMFERD
 40
0.0
  9
$SKPOLY
 70
     0
  9
$TDCREATE
 40
2460697.540961794
  9
$TDUCREATE
 40
2460697.415961794
  9
$TDUPDATE
 40
2460697.540961979
  9
$TDUUPDATE
 40
2460697.415961979
  9
$TDINDWG
 40
0.0000000116
  9
$TDUSRTIMER
 40
0.0000000116
  9
$USRTIMER
 70
     1
  9
$ANGBASE
 50
0.0
  9
$ANGDIR
 70
     0
  9
$PDMODE
 70
     0
  9
$PDSIZE
 40
-1.0
  9
$PLINEWID
 40
0.0
  9
$SPLFRAME
 70
     0
  9
$SPLINETYPE
 70
     6
  9
$SPLINESEGS
 70
     8
  9
$HANDSEED
  5
B2
  9
$SURFTAB1
 70
     6
  9
$SURFTAB2
 70
     6
  9
$SURFTYPE
 70
     6
  9
$SURFU
 70
     6
  9
$SURFV
 70
     6
  9
$UCSBASE
  2

  9
$UCSNAME
  2

  9
$UCSORG
 10
0.0
 20
0.0
 30
0.0
  9
$UCSXDIR
 10
1.0
 20
0.0
 30
0.0
  9
$UCSYDIR
 10
0.0
 20
1.0
 30
0.0
  9
$UCSORTHOREF
  2

  9
$UCSORTHOVIEW
 70
     0
  9
$UCSORGTOP
 10
0.0
 20
0.0
 30
0.0
  9
$UCSORGBOTTOM
 10
0.0
 20
0.0
 30
0.0
  9
$UCSORGLEFT
 10
0.0
 20
0.0
 30
0.0
  9
$UCSORGRIGHT
 10
0.0
 20
0.0
 30
0.0
  9
$UCSORGFRONT
 10
0.0
 20
0.0
 30
0.0
  9
$UCSORGBACK
 10
0.0
 20
0.0
 30
0.0
  9
$PUCSBASE
  2

  9
$PUCSNAME
  2

  9
$PUCSORG
 10
0.0
 20
0.0
 30
0.0
  9
$PUCSXDIR
 10
1.0
 20
0.0
 30
0.0
  9
$PUCSYDIR
 10
0.0
 20
1.0
 30
0.0
  9
$PUCSORTHOREF
  2

  9
$PUCSORTHOVIEW
 70
     0
  9
$PUCSORGTOP
 10
0.0
 20
0.0
 30
0.0
  9
$PUCSORGBOTTOM
 10
0.0
 20
0.0
 30
0.0
  9
$PUCSORGLEFT
 10
0.0
 20
0.0
 30
0.0
  9
$PUCSORGRIGHT
 10
0.0
 20
0.0
 30
0.0
  9
$PUCSORGFRONT
 10
0.0
 20
0.0
 30
0.0
  9
$PUCSORGBACK
 10
0.0
 20
0.0
 30
0.0
  9
$USERI1
 70
     0
  9
$USERI2
 70
     0
  9
$USERI3
 70
     0
  9
$USERI4
 70
     0
  9
$USERI5
 70
     0
  9
$USERR1
 40
0.0
  9
$USERR2
 40
0.0
  9
$USERR3
 40
0.0
  9
$USERR4
 40
0.0
  9
$USERR5
 40
0.0
  9
$WORLDVIEW
 70
     1
  9
$SHADEDGE
 70
     3
  9
$SHADEDIF
 70
    70
  9
$TILEMODE
 70
     1
  9
$MAXACTVP
 70
    64
  9
$PINSBASE
 10
0.0
 20
0.0
 30
0.0
  9
$PLIMCHECK
 70
     0
  9
$PEXTMIN
 10
1.0000000000E+20
 20
1.0000000000E+20
 30
1.0000000000E+20
  9
$PEXTMAX
 10
-1.0000000000E+20
 20
-1.0000000000E+20
 30
-1.0000000000E+20
  9
$PLIMMIN
 10
0.0
 20
0.0
  9
$PLIMMAX
 10
420.0
 20
297.0
  9
$UNITMODE
 70
     0
  9
$VISRETAIN
 70
     1
  9
$PLINEGEN
 70
     0
  9
$PSLTSCALE
 70
     1
  9
$TREEDEPTH
 70
  3020
  9
$CMLSTYLE
  2
Standard
  9
$CMLJUST
 70
     0
  9
$CMLSCALE
 40
20.0
  9
$PROXYGRAPHICS
 70
     1
  9
$MEASUREMENT
 70
     1
  9
$CELWEIGHT
370
    -1
  9
$ENDCAPS
280
     0
  9
$JOINSTYLE
280
     0
  9
$LWDISPLAY
290
     1
  9
$INSUNITS
 70
     4
  9
$HYPERLINKBASE
  1

  9
$STYLESHEET
  1

  9
$XEDIT
290
     1
  9
$CEPSNTYPE
380
     0
  9
$PSTYLEMODE
290
     1
  9
$FINGERPRINTGUID
  2
{988e226f-adf6-4d5c-9aec-da1db7d3f58a}
  9
$VERSIONGUID
  2
{FAEB1C32-E019-11D5-929B-00C0DF256EC4}
  9
$EXTNAMES
290
     1
  9
$PSVPSCALE
 40
0.0
  9
$OLESTARTUP
290
     0
  0
ENDSEC
  0
SECTION
  2
CLASSES
  0
CLASS
  1
ACDBDICTIONARYWDFLT
  2
AcDbDictionaryWithDefault
  3
ObjectDBX Classes
 90
        0
280
     0
281
     0
  0
CLASS
  1
VISUALSTYLE
  2
AcDbVisualStyle
  3
ObjectDBX Classes
 90
     4095
280
     0
281
     0
  0
CLASS
  1
MATERIAL
  2
AcDbMaterial
  3
ObjectDBX Classes
 90
     1153
280
     0
281
     0
  0
CLASS
  1
SCALE
  2
AcDbScale
  3
ObjectDBX Classes
 90
     1153
280
     0
281
     0
  0
CLASS
  1
TABLESTYLE
  2
AcDbTableStyle
  3
ObjectDBX Classes
 90
     4095
280
     0
281
     0
  0
CLASS
  1
MLEADERSTYLE
  2
AcDbMLeaderStyle
  3
ACDB_MLEADERSTYLE_CLASS
 90
     4095
280
     0
281
     0
  0
CLASS
  1
SUN
  2
AcDbSun
  3
SCENEOE
 90
     1153
280
     0
281
     0
  0
CLASS
  1
ACDBPLACEHOLDER
  2
AcDbPlaceHolder
  3
ObjectDBX Classes
 90
        0
280
     0
281
     0
  0
CLASS
  1
LAYOUT
  2
AcDbLayout
  3
ObjectDBX Classes
 90
        0
280
     0
281
     0
  0
ENDSEC
  0
SECTION
  2
TABLES
  0
TABLE
  2
VPORT
  5
8
330
0
100
AcDbSymbolTable
 70
     1
  0
VPORT
  5
29
330
8
100
AcDbSymbolTableRecord
100
AcDbViewportTableRecord
  2
*Active
 70
     0
 10
0.0
 20
0.0
 11
1.0
 21
1.0
 12
139.7
 22
107.95
 13
0.0
 23
0.0
 14
10.0
 24
10.0
 15
10.0
 25
10.0
 16
0.0
 26
0.0
 36
1.0
 17
0.0
 27
0.0
 37
0.0
 40
215.9
 41
1.2941176471
 42
50.0
 43
0.0
 44
0.0
 50
0.0
 51
0.0
 71
     0
 72
  2000
 73
     1
 74
     3
 75
     0
 76
     0
 77
     0
 78
     0
281
     0
 65
     1
110
0.0
120
0.0
130
0.0
111
1.0
121
0.0
131
0.0
112
0.0
122
1.0
132
0.0
 79
     0
146
0.0
  0
ENDTAB
  0
TABLE
  2
LTYPE
  5
5
330
0
100
AcDbSymbolTable
 70
     6
  0
LTYPE
  5
14
330
5
100
AcDbSymbolTableRecord
100
AcDbLinetypeTableRecord
  2
ByBlock
 70
     0
  3

 72
    65
 73
     0
 40
0.0
  0
LTYPE
  5
15
330
5
100
AcDbSymbolTableRecord
100
AcDbLinetypeTableRecord
  2
ByLayer
 70
     0
  3

 72
    65
 73
     0
 40
0.0
  0
LTYPE
  5
16
330
5
100
AcDbSymbolTableRecord
100
AcDbLinetypeTableRecord
  2
Continuous
 70
     0
  3
Solid line
 72
    65
 73
     0
 40
0.0
  0
LTYPE
  5
6E
330
5
100
AcDbSymbolTableRecord
100
AcDbLinetypeTableRecord
  2
HIDDEN
 70
     0
  3
Hidden __ __ __ __ __ __ __ __ __ __ __ __ __ __
 72
    65
 73
     2
 40
1.905
 49
1.27
 74
     0
 49
-0.635
 74
     0
  0
LTYPE
  5
6F
330
5
100
AcDbSymbolTableRecord
100
AcDbLinetypeTableRecord
  2
PHANTOM
 70
     0
  3
Phantom ______  __  __  ______  __  __  ______
 72
    65
 73
     6
 40
12.7
 49
6.35
 74
     0
 49
-1.27
 74
     0
 49
1.27
 74
     0
 49
-1.27
 74
     0
 49
1.27
 74
     0
 49
-1.27
 74
     0
  0
LTYPE
  5
70
330
5
100
AcDbSymbolTableRecord
100
AcDbLinetypeTableRecord
  2
CENTER
 70
     0
  3
Center ____ _ ____ _ ____ _ ____ _ ____ _ ____
 72
    65
 73
     4
 40
10.16
 49
6.35
 74
     0
 49
-1.27
 74
     0
 49
1.27
 74
     0
 49
-1.27
 74
     0
  0
LTYPE
  5
71
330
5
100
AcDbSymbolTableRecord
100
AcDbLinetypeTableRecord
  2
CENTERX2
 70
     0
  3
Center (2x) ________  __  ________  __  _____
 72
    65
 73
     4
 40
20.32
 49
12.7
 74
     0
 49
-2.54
 74
     0
 49
2.54
 74
     0
 49
-2.54
 74
     0
  0
LTYPE
  5
72
330
5
100
AcDbSymbolTableRecord
100
AcDbLinetypeTableRecord
  2
DOT2
 70
     0
  3
Dot (.5x) ........................................
 72
    65
 73
     2
 40
0.635
 49
0.0
 74
     0
 49
-0.635
 74
     0
  0
ENDTAB
  0
TABLE
  2
LAYER
  5
2
330
0
100
AcDbSymbolTable
 70
    17
  0
LAYER
  5
10
330
2
100
AcDbSymbolTableRecord
100
AcDbLayerTableRecord
  2
0
 70
     0
 62
     7
  6
Continuous
370
    -3
390
F
  0
LAYER
  5
73
330
2
100
AcDbSymbolTableRecord
100
AcDbLayerTableRecord
  2
FORMAT
 70
     0
 62
     7
  6
Continuous
370
    -3
390
F
  0
LAYER
  5
74
330
2
100
AcDbSymbolTableRecord
100
AcDbLayerTableRecord
  2
YARDIMCI_GEOMETRI
 70
     0
 62
    -6
  6
Continuous
290
     0
370
    -3
390
F
  0
LAYER
  5
75
330
2
100
AcDbSymbolTableRecord
100
AcDbLayerTableRecord
  2
SAYFA_CERCEVESI
 70
     0
 62
     7
  6
Continuous
370
    25
390
F
  0
LAYER
  5
76
330
2
100
AcDbSymbolTableRecord
100
AcDbLayerTableRecord
  2
ANTET
 70
     0
 62
     7
  6
Continuous
370
    -3
390
F
  0
LAYER
  5
77
330
2
100
AcDbSymbolTableRecord
100
AcDbLayerTableRecord
  2
OLCU
 70
     0
 62
   150
  6
Continuous
370
    -3
390
F
  0
LAYER
  5
78
330
2
100
AcDbSymbolTableRecord
100
AcDbLayerTableRecord
  2
METIN
 70
     0
 62
    96
  6
Continuous
370
    -3
390
F
  0
LAYER
  5
79
330
2
100
AcDbSymbolTableRecord
100
AcDbLayerTableRecord
  2
BALON
 70
     0
 62
     5
  6
Continuous
370
    -3
390
F
  0
LAYER
  5
7A
330
2
100
AcDbSymbolTableRecord
100
AcDbLayerTableRecord
  2
VURGU
 70
     0
 62
     7
  6
Continuous
370
    -3
390
F
  0
LAYER
  5
7B
330
2
100
AcDbSymbolTableRecord
100
AcDbLayerTableRecord
  2
SILIK
 70
     0
 62
     7
  6
Continuous
370
    -3
390
F
  0
LAYER
  5
7C
330
2
100
AcDbSymbolTableRecord
100
AcDbLayerTableRecord
  2
MODEL
 70
     0
 62
     7
  6
Continuous
370
    -3
390
F
  0
LAYER
  5
7D
330
2
100
AcDbSymbolTableRecord
100
AcDbLayerTableRecord
  2
DETAYLANDıRMA
 70
     0
 62
   190
  6
Continuous
370
    -3
390
F
  0
LAYER
  5
7E
330
2
100
AcDbSymbolTableRecord
100
AcDbLayerTableRecord
  2
TOLERANS
 70
     0
 62
   230
  6
Continuous
370
    -3
390
F
  0
LAYER
  5
7F
330
2
100
AcDbSymbolTableRecord
100
AcDbLayerTableRecord
  2
MERKEZ_CIZGILERI
 70
     0
 62
    30
  6
Continuous
370
    -3
390
F
  0
LAYER
  5
80
330
2
100
AcDbSymbolTableRecord
100
AcDbLayerTableRecord
  2
KESIT-DETAY_CIZGILERI
 70
     0
 62
     7
  6
Continuous
370
    -3
390
F
  0
LAYER
  5
81
330
2
100
AcDbSymbolTableRecord
100
AcDbLayerTableRecord
  2
\U+041E\U+0421\U+0415\U+0412\U+042B\U+0415
 70
     0
 62
     7
  6
Continuous
370
    -3
390
F
  0
LAYER
  5
82
330
2
100
AcDbSymbolTableRecord
100
AcDbLayerTableRecord
  2
\U+0412\U+041E\U+0414\U+042F\U+041D\U+042B\U+0415_\U+0417\U+041D\U+0410\U+041A\U+0418
 70
     0
 62
    11
  6
Continuous
370
    -3
390
F
  0
ENDTAB
  0
TABLE
  2
STYLE
  5
3
330
0
100
AcDbSymbolTable
 70
     1
  0
STYLE
  5
11
330
3
100
AcDbSymbolTableRecord
100
AcDbTextStyleTableRecord
  2
Standard
 70
     0
 40
0.0
 41
1.0
 50
0.0
 71
     0
 42
3.5
  3
txt
  4

  0
ENDTAB
  0
TABLE
  2
VIEW
  5
6
330
0
100
AcDbSymbolTable
 70
     0
  0
ENDTAB
  0
TABLE
  2
UCS
  5
7
330
0
100
AcDbSymbolTable
 70
     0
  0
ENDTAB
  0
TABLE
  2
APPID
  5
9
330
0
100
AcDbSymbolTable
 70
     1
  0
APPID
  5
12
330
9
100
AcDbSymbolTableRecord
100
AcDbRegAppTableRecord
  2
ACAD
 70
     0
  0
ENDTAB
  0
TABLE
  2
DIMSTYLE
  5
A
330
0
100
AcDbSymbolTable
 70
     1
100
AcDbDimStyleTable
  0
DIMSTYLE
105
27
330
A
100
AcDbSymbolTableRecord
100
AcDbDimStyleTableRecord
  2
ISO-25
 70
     0
 41
2.5
 42
0.625
 43
3.75
 44
1.25
 73
     0
 74
     0
 77
     1
 78
     8
140
2.5
141
2.5
143
0.0393700787
147
0.625
171
     3
172
     1
178
     0
271
     2
272
     2
274
     3
278
    44
283
     0
284
     8
340
11
  0
ENDTAB
  0
TABLE
  2
BLOCK_RECORD
  5
1
330
0
100
AcDbSymbolTable
 70
     2
  0
BLOCK_RECORD
  5
1F
330
1
100
AcDbSymbolTableRecord
100
AcDbBlockTableRecord
  2
*Model_Space
340
22
  0
BLOCK_RECORD
  5
1B
330
1
100
AcDbSymbolTableRecord
100
AcDbBlockTableRecord
  2
*Paper_Space
340
1E
  0
BLOCK_RECORD
  5
23
330
1
100
AcDbSymbolTableRecord
100
AcDbBlockTableRecord
  2
*Paper_Space0
340
26
  0
BLOCK_RECORD
  5
85
330
1
100
AcDbSymbolTableRecord
100
AcDbBlockTableRecord
  2
SW_CENTERMARKSYMBOL_0
340
0
102
{BLKREFS
331
90
102
}
  0
ENDTAB
  0
ENDSEC
  0
SECTION
  2
BLOCKS
  0
BLOCK
  5
20
330
1F
100
AcDbEntity
  8
0
100
AcDbBlockBegin
  2
*Model_Space
 70
     0
 10
0.0
 20
0.0
 30
0.0
  3
*Model_Space
  1

  0
ENDBLK
  5
21
330
1F
100
AcDbEntity
  8
0
100
AcDbBlockEnd
  0
BLOCK
  5
1C
330
1B
100
AcDbEntity
 67
     1
  8
0
100
AcDbBlockBegin
  2
*Paper_Space
 70
     0
 10
0.0
 20
0.0
 30
0.0
  3
*Paper_Space
  1

  0
ENDBLK
  5
1D
330
1B
100
AcDbEntity
 67
     1
  8
0
100
AcDbBlockEnd
  0
BLOCK
  5
24
330
23
100
AcDbEntity
  8
0
100
AcDbBlockBegin
  2
*Paper_Space0
 70
     0
 10
0.0
 20
0.0
 30
0.0
  3
*Paper_Space0
  1

  0
ENDBLK
  5
25
330
23
100
AcDbEntity
  8
0
100
AcDbBlockEnd
  0
BLOCK
  5
86
330
85
100
AcDbEntity
  8
0
100
AcDbBlockBegin
  2
SW_CENTERMARKSYMBOL_0
 70
     0
 10
0.0
 20
0.0
 30
0.0
  3
SW_CENTERMARKSYMBOL_0
  1

  0
LINE
  5
88
330
85
100
AcDbEntity
  8
FORMAT
 62
     0
100
AcDbLine
 10
0.0
 20
0.0
 30
0.0
 11
0.0
 21
2.5
 31
0.0
  0
LINE
  5
89
330
85
100
AcDbEntity
  8
FORMAT
 62
     0
100
AcDbLine
 10
0.0
 20
0.0
 30
0.0
 11
-2.5
 21
0.0
 31
0.0
  0
LINE
  5
8A
330
85
100
AcDbEntity
  8
FORMAT
 62
     0
100
AcDbLine
 10
0.0
 20
0.0
 30
0.0
 11
0.0
 21
-2.5
 31
0.0
  0
LINE
  5
8B
330
85
100
AcDbEntity
  8
FORMAT
 62
     0
100
AcDbLine
 10
0.0
 20
0.0
 30
0.0
 11
2.5
 21
0.0
 31
0.0
  0
LINE
  5
8C
330
85
100
AcDbEntity
  8
FORMAT
 62
     0
100
AcDbLine
 10
0.0
 20
5.0
 30
0.0
 11
0.0
 21
92.5
 31
0.0
  0
LINE
  5
8D
330
85
100
AcDbEntity
  8
FORMAT
 62
     0
100
AcDbLine
 10
-5.0
 20
0.0
 30
0.0
 11
-92.5
 21
0.0
 31
0.0
  0
LINE
  5
8E
330
85
100
AcDbEntity
  8
FORMAT
 62
     0
100
AcDbLine
 10
0.0
 20
-5.0
 30
0.0
 11
0.0
 21
-92.5
 31
0.0
  0
LINE
  5
8F
330
85
100
AcDbEntity
  8
FORMAT
 62
     0
100
AcDbLine
 10
5.0
 20
0.0
 30
0.0
 11
92.5
 21
0.0
 31
0.0
  0
ENDBLK
  5
87
330
85
100
AcDbEntity
  8
0
100
AcDbBlockEnd
  0
ENDSEC
  0
SECTION
  2
ENTITIES
  0
CIRCLE
  5
83
330
1F
100
AcDbEntity
  8
0
  6
Continuous
 62
     7
370
    25
100
AcDbCircle
 10
127.8025537254
 20
106.0321058177
 30
0.0
 40
73.60000000000001
  0
CIRCLE
  5
84
330
1F
100
AcDbEntity
  8
0
  6
Continuous
 62
     7
370
    25
100
AcDbCircle
 10
127.8025537254
 20
106.0321058177
 30
0.0
 40
90.00000000000003
  0
INSERT
  5
90
330
1F
100
AcDbEntity
  8
FORMAT
100
AcDbBlockReference
  2
SW_CENTERMARKSYMBOL_0
 10
127.8025537254
 20
106.0321058177
 30
0.0
  0
ARC
  5
91
330
1F
100
AcDbEntity
  8
0
  6
Continuous
 62
     7
370
    25
100
AcDbCircle
 10
125.0992420477
 20
476.7481872702
 30
0.0
 40
270.0
100
AcDbArc
 50
270.5736701399
 51
290.0808376405
  0
ARC
  5
92
330
1F
100
AcDbEntity
  8
0
  6
Continuous
 62
     7
370
    25
100
AcDbCircle
 10
130.5058654031
 20
476.7481872702
 30
0.0
 40
270.0
100
AcDbArc
 50
249.9191623595
 51
269.4263298601
  0
LINE
  5
93
330
1F
100
AcDbEntity
  8
0
  6
Continuous
 62
     7
370
    25
100
AcDbLine
 10
37.8025537254
 20
344.8986296418
 30
0.0
 11
37.8025537254
 21
223.1617207464
 31
0.0
  0
LINE
  5
94
330
1F
100
AcDbEntity
  8
0
  6
Continuous
 62
     7
370
    25
100
AcDbLine
 10
217.8025537254
 20
223.1617207464
 30
0.0
 11
217.8025537254
 21
344.8986296418
 31
0.0
  0
LINE
  5
95
330
1F
100
AcDbEntity
  8
0
  6
Continuous
 62
     7
370
    25
100
AcDbLine
 10
127.8025537254
 20
223.1617207464
 30
0.0
 11
217.8025537254
 21
223.1617207464
 31
0.0
  0
LINE
  5
96
330
1F
100
AcDbEntity
  8
0
  6
Continuous
 62
     7
370
    25
100
AcDbLine
 10
37.8025537254
 20
223.1617207464
 30
0.0
 11
127.8025537254
 21
223.1617207464
 31
0.0
  0
LINE
  5
97
330
1F
100
AcDbEntity
  8
0
  6
Continuous
 62
     7
370
    25
100
AcDbLine
 10
127.8025537254
 20
344.8986296418
 30
0.0
 11
217.8025537254
 21
344.8986296418
 31
0.0
  0
LINE
  5
98
330
1F
100
AcDbEntity
  8
0
  6
Continuous
 62
     7
370
    25
100
AcDbLine
 10
37.8025537254
 20
344.8986296418
 30
0.0
 11
127.8025537254
 21
344.8986296418
 31
0.0
  0
LINE
  5
99
330
1F
100
AcDbEntity
  8
0
  6
Continuous
 62
     7
370
    25
100
AcDbLine
 10
217.8025537254
 20
-172.5126743345
 30
0.0
 11
217.8025537254
 21
-50.7757654391
 31
0.0
  0
LINE
  5
9A
330
1F
100
AcDbEntity
  8
0
  6
Continuous
 62
     7
370
    25
100
AcDbLine
 10
37.8025537254
 20
-50.7757654391
 30
0.0
 11
37.8025537254
 21
-172.5126743345
 31
0.0
  0
ARC
  5
9B
330
1F
100
AcDbEntity
  8
0
  6
Continuous
 62
     7
370
    25
100
AcDbCircle
 10
130.5058654031
 20
-304.3622319628
 30
0.0
 40
270.0
100
AcDbArc
 50
90.5736701399
 51
110.0808376405
  0
ARC
  5
9C
330
1F
100
AcDbEntity
  8
0
  6
Continuous
 62
     7
370
    25
100
AcDbCircle
 10
125.0992420477
 20
-304.3622319628
 30
0.0
 40
270.0
100
AcDbArc
 50
69.9191623595
 51
89.4263298601
  0
LINE
  5
9D
330
1F
100
AcDbEntity
  8
0
  6
Continuous
 62
     7
370
    25
100
AcDbLine
 10
217.8025537254
 20
-172.5126743345
 30
0.0
 11
37.8025537254
 21
-172.5126743345
 31
0.0
  0
LINE
  5
9E
330
1F
100
AcDbEntity
  8
0
  6
Continuous
 62
     7
370
    25
100
AcDbLine
 10
217.8025537254
 20
-50.7757654391
 30
0.0
 11
37.8025537254
 21
-50.7757654391
 31
0.0
  0
ARC
  5
9F
330
1F
100
AcDbEntity
  8
0
  6
Continuous
 62
     7
370
    25
100
AcDbCircle
 10
517.8462862877
 20
108.7354174953
 30
0.0
 40
270.0
100
AcDbArc
 50
180.5736701399
 51
200.0808376405
  0
ARC
  5
A0
330
1F
100
AcDbEntity
  8
0
  6
Continuous
 62
     7
370
    25
100
AcDbCircle
 10
517.8462862877
 20
103.32879414
 30
0.0
 40
270.0
100
AcDbArc
 50
159.9191623595
 51
179.4263298601
  0
LINE
  5
A1
330
1F
100
AcDbEntity
  8
0
  6
Continuous
 62
     7
370
    25
100
AcDbLine
 10
385.9967286593
 20
196.0321058177
 30
0.0
 11
264.2598197639
 21
196.0321058177
 31
0.0
  0
LINE
  5
A2
330
1F
100
AcDbEntity
  8
0
  6
Continuous
 62
     7
370
    25
100
AcDbLine
 10
264.2598197639
 20
16.0321058177
 30
0.0
 11
385.9967286593
 21
16.0321058177
 31
0.0
  0
LINE
  5
A3
330
1F
100
AcDbEntity
  8
0
  6
Continuous
 62
     7
370
    25
100
AcDbLine
 10
264.2598197639
 20
196.0321058177
 30
0.0
 11
264.2598197639
 21
16.0321058177
 31
0.0
  0
LINE
  5
A4
330
1F
100
AcDbEntity
  8
0
  6
Continuous
 62
     7
370
    25
100
AcDbLine
 10
385.9967286593
 20
196.0321058177
 30
0.0
 11
385.9967286593
 21
16.0321058177
 31
0.0
  0
ARC
  5
A5
330
1F
100
AcDbEntity
  8
0
  6
Continuous
 62
     7
370
    25
100
AcDbCircle
 10
-255.3877209248
 20
103.32879414
 30
0.0
 40
270.0
100
AcDbArc
 50
0.5736701399
 51
20.0808376405
  0
ARC
  5
A6
330
1F
100
AcDbEntity
  8
0
  6
Continuous
 62
     7
370
    25
100
AcDbCircle
 10
-255.3877209248
 20
108.7354174953
 30
0.0
 40
270.0
100
AcDbArc
 50
339.9191623595
 51
359.4263298601
  0
LINE
  5
A7
330
1F
100
AcDbEntity
  8
0
  6
Continuous
 62
     7
370
    25
100
AcDbLine
 10
-123.5381632964
 20
16.0321058177
 30
0.0
 11
-1.801254401
 21
16.0321058177
 31
0.0
  0
LINE
  5
A8
330
1F
100
AcDbEntity
  8
0
  6
Continuous
 62
     7
370
    25
100
AcDbLine
 10
-1.801254401
 20
196.0321058177
 30
0.0
 11
-123.5381632964
 21
196.0321058177
 31
0.0
  0
LINE
  5
A9
330
1F
100
AcDbEntity
  8
0
  6
Continuous
 62
     7
370
    25
100
AcDbLine
 10
-1.801254401
 20
16.0321058177
 30
0.0
 11
-1.801254401
 21
196.0321058177
 31
0.0
  0
LINE
  5
AA
330
1F
100
AcDbEntity
  8
0
  6
Continuous
 62
     7
370
    25
100
AcDbLine
 10
-123.5381632964
 20
16.0321058177
 30
0.0
 11
-123.5381632964
 21
196.0321058177
 31
0.0
  0
LINE
  5
AB
330
1F
100
AcDbEntity
  8
0
  6
Continuous
 62
     7
370
    25
100
AcDbLine
 10
274.2917762086
 20
-177.7575960001
 30
0.0
 11
360.3727700092
 21
-227.4510959653
 31
0.0
  0
LINE
  5
AC
330
1F
100
AcDbEntity
  8
0
  6
Continuous
 62
     7
370
    25
100
AcDbLine
 10
450.3654559464
 20
-71.5623007368
 30
0.0
 11
364.2844621458
 21
-21.8688007716
 31
0.0
  0
LWPOLYLINE
  5
AD
330
1F
100
AcDbEntity
  8
0
  6
Continuous
 62
     7
370
    25
100
AcDbPolyline
 90
      135
 70
   128
 43
0.0
 10
319.2881191772
 20
-173.3018714556
 10
322.271051695
 20
-171.4990891408
 10
325.2474270797
 20
-169.5387256803
 10
328.2107026123
 20
-167.4250903783
 10
331.1543643701
 20
-165.162829464
 10
334.0719415456
 20
-162.7569158779
 10
336.9570206711
 20
-160.2126383402
 10
339.8032597164
 20
-157.535589725
 10
342.6044020304
 20
-154.7316547662
 10
345.3542900944
 20
-151.8069971215
 10
348.0468790577
 20
-148.768045823
 10
350.6762500252
 20
-145.6214811452
 10
353.2366230691
 20
-142.3742199202
 10
355.7223699335
 20
-139.0334003329
 10
358.1280264076
 20
-135.6063662299
 10
360.4483043361
 20
-132.1006509757
 10
362.6781032448
 20
-128.5239608935
 10
364.8125215516
 20
-124.8841583242
 10
366.8468673419
 20
-121.1892443439
 10
368.7766686821
 20
-117.4473411754
 10
370.5976834501
 20
-113.6666743338
 10
372.3059086602
 20
-109.8555545456
 10
373.8975892626
 20
-106.022359479
 10
375.3692263979
 20
-102.1755153288
 10
376.7175850884
 20
-98.3234782933
 10
377.939701349
 20
-94.4747159858
 10
379.0328887029
 20
-90.6376888212
 10
379.994744087
 20
-86.820831418
 10
380.8231531345
 20
-83.0325340572
 10
381.5162948225
 20
-79.2811242384
 10
382.0726454752
 20
-75.5748483746
 10
382.490982113
 20
-71.9218536646
 10
382.7703851413
 20
-68.3301701835
 10
382.9102403715
 20
-64.807693231
 10
382.9102403715
 20
-61.3621659762
 10
382.7703851413
 20
-58.0011624355
 10
382.490982113
 20
-54.7320708242
 10
382.0726454752
 20
-51.5620773153
 10
381.5162948225
 20
-48.4981502423
 10
380.8231531345
 20
-45.5470247819
 10
379.994744087
 20
-42.7151881485
 10
379.0328887029
 20
-40.0088653334
 10
377.939701349
 20
-37.4340054217
 10
376.7175850884
 20
-34.9962685141
 10
375.3692263979
 20
-32.7010132856
 10
373.8975892626
 20
-30.5532852051
 10
372.3059086602
 20
-28.5578054452
 10
370.5976834501
 20
-26.7189605035
 10
368.7766686821
 20
-25.0407925601
 10
366.8468673419
 20
-23.5269905925
 10
364.8125215516
 20
-22.1808822659
 10
362.6781032448
 20
-21.0054266186
 10
360.4483043361
 20
-20.0032075572
 10
358.1280264076
 20
-19.1764281766
 10
355.7223699335
 20
-18.5269059175
 10
353.2366230691
 20
-18.0560685706
 10
350.6762500252
 20
-17.7649511388
 10
348.0468790577
 20
-17.6541935611
 10
345.3542900944
 20
-17.724039307
 10
342.6044020304
 20
-17.9743348402
 10
339.8032597164
 20
-18.4045299568
 10
336.9570206711
 20
-19.0136789946
 10
334.0719415456
 20
-19.8004429119
 10
331.1543643701
 20
-20.7630922308
 10
328.2107026123
 20
-21.8995108391
 10
325.2474270797
 20
-23.2072006422
 10
322.271051695
 20
-24.6832870539
 10
319.2881191772
 20
-26.3245253162
 10
316.3051866594
 20
-28.1273076309
 10
313.3288112747
 20
-30.0876710915
 10
310.3655357421
 20
-32.2013063934
 10
307.4218739843
 20
-34.4635673077
 10
304.5042968088
 20
-36.8694808938
 10
301.6192176833
 20
-39.4137584316
 10
298.772978638
 20
-42.0908070468
 10
295.971836324
 20
-44.8947420055
 10
293.22194826
 20
-47.8193996503
 10
290.5293592967
 20
-50.8583509488
 10
287.8999883292
 20
-54.0049156266
 10
285.3396152854
 20
-57.2521768515
 10
282.8538684209
 20
-60.5929964388
 10
280.4482119469
 20
-64.0200305419
 10
278.1279340183
 20
-67.525745796
 10
275.8981351096
 20
-71.1024358782
 10
273.7637168028
 20
-74.7422384475
 10
271.7293710125
 20
-78.4371524278
 10
269.7995696723
 20
-82.1790555964
 10
267.9785549043
 20
-85.9597224379
 10
266.2703296942
 20
-89.7708422261
 10
264.6786490918
 20
-93.6040372927
 10
263.2070119565
 20
-97.4508814429
 10
261.858653266
 20
-101.3029184785
 10
260.6365370054
 20
-105.151680786
 10
259.5433496516
 20
-108.9887079505
 10
258.5814942674
 20
-112.8055653537
 10
257.7530852199
 20
-116.5938627146
 10
257.0599435319
 20
-120.3452725334
 10
256.5035928792
 20
-124.0515483971
 10
256.0852562414
 20
-127.7045431072
 10
255.8058532131
 20
-131.2962265883
 10
255.6659979829
 20
-134.8187035407
 10
255.6659979829
 20
-138.2642307956
 10
255.8058532131
 20
-141.6252343363
 10
256.0852562414
 20
-144.8943259475
 10
256.5035928792
 20
-148.0643194565
 10
257.0599435319
 20
-151.1282465295
 10
257.7530852199
 20
-154.0793719898
 10
258.5814942674
 20
-156.9112086233
 10
259.5433496516
 20
-159.6175314383
 10
260.6365370054
 20
-162.1923913501
 10
261.858653266
 20
-164.6301282576
 10
263.2070119565
 20
-166.9253834862
 10
264.6786490918
 20
-169.0731115666
 10
266.2703296942
 20
-171.0685913265
 10
267.9785549043
 20
-172.9074362683
 10
269.7995696723
 20
-174.5856042116
 10
271.7293710125
 20
-176.0994061792
 10
273.7637168028
 20
-177.4455145058
 10
275.8981351096
 20
-178.6209701531
 10
278.1279340183
 20
-179.6231892146
 10
280.4482119469
 20
-180.4499685951
 10
282.8538684209
 20
-181.0994908542
 10
285.3396152854
 20
-181.5703282011
 10
287.8999883292
 20
-181.861445633
 10
290.5293592967
 20
-181.9722032106
 10
293.22194826
 20
-181.9023574648
 10
295.971836324
 20
-181.6520619316
 10
298.772978638
 20
-181.2218668149
 10
301.6192176833
 20
-180.6127177771
 10
304.5042968088
 20
-179.8259538598
 10
307.4218739843
 20
-178.863304541
 10
310.3655357421
 20
-177.7268859326
 10
313.3288112747
 20
-176.4191961296
 10
316.3051866594
 20
-174.9431097178
 10
319.2881191772
 20
-173.3018714556
  0
LWPOLYLINE
  5
AE
330
1F
100
AcDbEntity
  8
0
  6
Continuous
 62
     7
370
    25
100
AcDbPolyline
 90
       52
 70
   128
 43
0.0
 10
405.3691129778
 20
-222.9953714208
 10
408.3520454956
 20
-221.192589106
 10
411.3284208803
 20
-219.2322256455
 10
414.2916964129
 20
-217.1185903435
 10
417.2353581707
 20
-214.8563294292
 10
420.1529353462
 20
-212.4504158431
 10
423.0380144717
 20
-209.9061383054
 10
425.884253517
 20
-207.2290896902
 10
428.685395831
 20
-204.4251547314
 10
431.435283895
 20
-201.5004970867
 10
434.1278728583
 20
-198.4615457882
 10
436.7572438258
 20
-195.3149811104
 10
439.3176168696
 20
-192.0677198854
 10
441.8033637341
 20
-188.7269002981
 10
444.2090202082
 20
-185.299866195
 10
446.5292981367
 20
-181.7941509409
 10
448.7590970454
 20
-178.2174608587
 10
450.8935153522
 20
-174.5776582894
 10
452.9278611425
 20
-170.8827443091
 10
454.8576624827
 20
-167.1408411406
 10
456.6786772507
 20
-163.360174299
 10
458.3869024608
 20
-159.5490545108
 10
459.9785830632
 20
-155.7158594442
 10
461.4502201985
 20
-151.869015294
 10
462.798578889
 20
-148.0169782585
 10
464.0206951496
 20
-144.168215951
 10
465.1138825035
 20
-140.3311887864
 10
466.0757378876
 20
-136.5143313832
 10
466.9041469351
 20
-132.7260340224
 10
467.5972886231
 20
-128.9746242036
 10
468.1536392758
 20
-125.2683483398
 10
468.5719759136
 20
-121.6153536298
 10
468.8513789419
 20
-118.0236701486
 10
468.9912341721
 20
-114.5011931962
 10
468.9912341721
 20
-111.0556659414
 10
468.8513789419
 20
-107.6946624007
 10
468.5719759136
 20
-104.4255707894
 10
468.1536392758
 20
-101.2555772804
 10
467.5972886231
 20
-98.1916502075
 10
466.9041469351
 20
-95.2405247471
 10
466.0757378876
 20
-92.4086881137
 10
465.1138825035
 20
-89.7023652986
 10
464.0206951496
 20
-87.1275053869
 10
462.798578889
 20
-84.6897684793
 10
461.4502201985
 20
-82.3945132508
 10
459.9785830632
 20
-80.2467851703
 10
458.3869024608
 20
-78.2513054104
 10
456.6786772507
 20
-76.4124604687
 10
454.8576624827
 20
-74.7342925253
 10
452.9278611425
 20
-73.2204905577
 10
450.8935153522
 20
-71.8743822311
 10
450.3654559464
 20
-71.5623007368
  0
LWPOLYLINE
  5
AF
330
1F
100
AcDbEntity
  8
0
  6
Continuous
 62
     7
370
    25
100
AcDbPolyline
 90
       18
 70
   128
 43
0.0
 10
360.3727700092
 20
-227.4510959653
 10
361.9791289102
 20
-228.3144701183
 10
364.2089278189
 20
-229.3166891798
 10
366.5292057475
 20
-230.1434685603
 10
368.9348622215
 20
-230.7929908194
 10
371.420609086
 20
-231.2638281663
 10
373.9809821298
 20
-231.5549455982
 10
376.6103530973
 20
-231.6657031758
 10
379.3029420606
 20
-231.59585743
 10
382.0528301246
 20
-231.3455618968
 10
384.8539724386
 20
-230.9153667801
 10
387.7002114839
 20
-230.3062177423
 10
390.5852906094
 20
-229.519453825
 10
393.5028677849
 20
-228.5568045061
 10
396.4465295427
 20
-227.4203858978
 10
399.4098050753
 20
-226.1126960948
 10
402.38618046
 20
-224.636609683
 10
405.3691129778
 20
-222.9953714208
  0
LWPOLYLINE
  5
B0
330
1F
100
AcDbEntity
  8
0
  6
Continuous
 62
     7
370
    25
100
AcDbPolyline
 90
      122
 70
   128
 43
0.0
 10
319.2881191772
 20
-159.9106021407
 10
321.9893526515
 20
-158.2702072607
 10
324.683304078
 20
-156.47222262
 10
327.3627110398
 20
-154.521495267
 10
330.0203503295
 20
-152.423284018
 10
332.6490574214
 20
-150.1832452794
 10
335.241745786
 20
-147.8074177998
 10
337.7914259939
 20
-145.3022063898
 10
340.2912245579
 20
-142.6743646567
 10
342.7344024631
 20
-139.930976797
 10
345.1143733339
 20
-137.0794384994
 10
347.4247211894
 20
-134.1274370071
 10
349.6592177404
 20
-131.0829303941
 10
351.8118391792
 20
-127.9541261121
 10
353.876782419
 20
-124.7494588641
 10
355.8484807379
 20
-121.4775678666
 10
357.7216187858
 20
-118.1472735592
 10
359.4911469137
 20
-114.7675538265
 10
361.1522947867
 20
-111.3475197955
 10
362.7005842437
 20
-107.8963912731
 10
364.1318413701
 20
-104.4234718919
 10
365.4422077497
 20
-100.9381240283
 10
366.6281508664
 20
-97.4497435641
 10
367.6864736274
 20
-93.9677345563
 10
368.6143229814
 20
-90.5014838854
 10
369.4091976108
 20
-87.0603359506
 10
370.068954674
 20
-83.6535674782
 10
370.5918155826
 20
-80.2903625138
 10
370.9763707961
 20
-76.9797876633
 10
371.2215836216
 20
-73.7307676512
 10
371.3267930086
 20
-70.552061261
 10
371.2917153313
 20
-67.4522377232
 10
371.1164451529
 20
-64.4396536141
 10
370.8014549708
 20
-61.5224303277
 10
370.3475939429
 20
-58.7084321822
 10
369.7560855981
 20
-56.0052452192
 10
369.0285245385
 20
-53.4201567528
 10
368.1668721401
 20
-50.9601357245
 10
367.1734512653
 20
-48.631813916
 10
366.0509400012
 20
-46.4414680713
 10
364.8023644397
 20
-44.3950029755
 10
363.4310905198
 20
-42.4979355367
 10
361.9408149535
 20
-40.7553799134
 10
360.3355552604
 20
-39.1720337274
 10
358.6196389366
 20
-37.7521654001
 10
356.7976917893
 20
-36.4996026454
 10
354.8746254658
 20
-35.4177221512
 10
352.855624213
 20
-34.509440476
 10
350.7461309012
 20
-33.7772061865
 10
348.5518323516
 20
-33.222993257
 10
346.278644005
 20
-32.8482957475
 10
343.9326939753
 20
-32.6541237763
 10
341.520306529
 20
-32.6410007967
 10
339.0479850363
 20
-32.8089621859
 10
336.5223944387
 20
-33.1575551497
 10
333.950343282
 20
-33.6858399431
 10
331.3387653613
 20
-34.3923924037
 10
328.6947010291
 20
-35.275307791
 10
326.0252782152
 20
-36.3322059212
 10
323.3376932117
 20
-37.5602375838
 10
320.6391912725
 20
-38.9560922225
 10
317.9370470819
 20
-40.5160068601
 10
315.2385451427
 20
-42.2357762424
 10
312.5509601392
 20
-44.1107641752
 10
309.8815373253
 20
-46.1359160227
 10
307.2374729931
 20
-48.3057723333
 10
304.6258950724
 20
-50.6144835582
 10
302.0538439157
 20
-53.0558258201
 10
299.5282533181
 20
-55.6232176918
 10
297.0559318254
 20
-58.3097379387
 10
294.6435443791
 20
-61.1081441774
 10
292.2975943494
 20
-64.0108923992
 10
290.0244060028
 20
-67.0101573081
 10
287.8301074532
 20
-70.0978534164
 10
285.7206141414
 20
-73.265656841
 10
283.7016128886
 20
-76.5050277441
 10
281.7785465651
 20
-79.8072333545
 10
279.9565994178
 20
-83.1633715095
 10
278.240683094
 20
-86.5643946542
 10
276.6354234009
 20
-90.0011342314
 10
275.1451478346
 20
-93.4643253988
 10
273.7738739147
 20
-96.9446320053
 10
272.5252983532
 20
-100.4326717596
 10
271.4027870891
 20
-103.9190415232
 10
270.4093662143
 20
-107.3943426596
 10
269.5477138159
 20
-110.8492063713
 10
268.8201527563
 20
-114.2743189567
 10
268.2286444115
 20
-117.6604469177
 10
267.7747833836
 20
-120.9984618521
 10
267.4597932015
 20
-124.2793650616
 10
267.2845230231
 20
-127.4943118113
 10
267.2494453458
 20
-130.6346351732
 10
267.3546547328
 20
-133.6918693907
 10
267.5998675583
 20
-136.6577727008
 10
267.9844227718
 20
-139.5243495526
 10
268.5072836804
 20
-142.2838721617
 10
269.1670407436
 20
-144.928901343
 10
269.961915373
 20
-147.4523065654
 10
270.889764727
 20
-149.8472851748
 10
271.948087488
 20
-152.107380732
 10
273.1340306047
 20
-154.2265004191
 10
274.4443969844
 20
-156.1989314641
 10
275.8756541108
 20
-158.0193565415
 10
277.4239435677
 20
-159.6828681073
 10
279.0850914407
 20
-161.1849816284
 10
280.8546195686
 20
-162.5216476722
 10
282.7277576165
 20
-163.6892628234
 10
284.6994559354
 20
-164.684679398
 10
286.7643991752
 20
-165.505213929
 10
288.917020614
 20
-166.1486544003
 10
291.151517165
 20
-166.61326621
 10
293.4618650206
 20
-166.8977968471
 10
295.8418358913
 20
-167.0014792671
 10
298.2850137965
 20
-166.9240339605
 10
300.7848123605
 20
-166.6656697063
 10
303.3344925684
 20
-166.2270830087
 10
305.927180933
 20
-165.6094562201
 10
308.555888025
 20
-164.8144543529
 10
311.2135273147
 20
-163.8442205917
 10
313.8929342765
 20
-162.7013705152
 10
316.5868857029
 20
-161.3889850451
 10
319.2881191772
 20
-159.9106021407
  0
ENDSEC
  0
SECTION
  2
OBJECTS
  0
DICTIONARY
  5
C
330
0
100
AcDbDictionary
281
     1
  3
ACAD_GROUP
350
D
  3
ACAD_LAYOUT
350
1A
  3
ACAD_MLINESTYLE
350
17
  3
ACAD_PLOTSETTINGS
350
19
  3
ACAD_PLOTSTYLENAME
350
E
  3
ACAD_SCALELIST
350
47
  3
DWGPROPS
350
B1
  0
DICTIONARY
  5
D
102
{ACAD_REACTORS
330
C
102
}
330
C
100
AcDbDictionary
281
     1
  0
DICTIONARY
  5
1A
102
{ACAD_REACTORS
330
C
102
}
330
C
100
AcDbDictionary
281
     1
  3
Layout1
350
1E
  3
Layout2
350
26
  3
Model
350
22
  0
DICTIONARY
  5
17
102
{ACAD_REACTORS
330
C
102
}
330
C
100
AcDbDictionary
281
     1
  3
Standard
350
18
  0
DICTIONARY
  5
19
102
{ACAD_REACTORS
330
C
102
}
330
C
100
AcDbDictionary
281
     1
  0
ACDBDICTIONARYWDFLT
  5
E
102
{ACAD_REACTORS
330
C
102
}
330
C
100
AcDbDictionary
281
     1
  3
Normal
350
F
100
AcDbDictionaryWithDefault
340
F
  0
DICTIONARY
  5
47
102
{ACAD_REACTORS
330
C
102
}
330
C
100
AcDbDictionary
281
     1
  3
A0
350
48
  3
A1
350
49
  3
A2
350
4A
  3
A3
350
4B
  3
A4
350
4C
  3
A5
350
4D
  3
A6
350
4E
  3
A7
350
4F
  3
A8
350
50
  3
A9
350
51
  3
B0
350
52
  3
B1
350
53
  3
B2
350
54
  3
B3
350
55
  3
B4
350
56
  3
B5
350
57
  3
B6
350
58
  3
B7
350
59
  3
B8
350
5A
  3
B9
350
5B
  3
C0
350
5C
  3
C1
350
5D
  3
C2
350
5E
  3
C3
350
5F
  3
C4
350
60
  3
C5
350
61
  3
C6
350
62
  3
C7
350
63
  3
C8
350
64
  3
C9
350
65
  3
D0
350
66
  3
D1
350
67
  3
D2
350
68
  0
XRECORD
  5
B1
102
{ACAD_REACTORS
330
C
102
}
330
C
100
AcDbXrecord
280
     1
  1
DWGPROPS COOKIE
  2

  3

  4

  6

  7

  8
b.kav
  9

300
=
301
=
302
=
303
=
304
=
305
=
306
=
307
=
308
=
309
=
 40
0.0
 41
2460697.415961794
 42
2460697.415961979
  1

 90
        0
  0
LAYOUT
  5
1E
102
{ACAD_REACTORS
330
1A
102
}
330
1A
100
AcDbPlotSettings
  1

  2
none_device
  4

  6

 40
0.0
 41
0.0
 42
0.0
 43
0.0
 44
0.0
 45
0.0
 46
0.0
 47
0.0
 48
0.0
 49
0.0
140
0.0
141
0.0
142
1.0
143
1.0
 70
   688
 72
     1
 73
     0
 74
     5
  7

 75
    16
147
1.0
148
0.0
149
0.0
100
AcDbLayout
  1
Layout1
 70
     1
 71
     1
 10
0.0
 20
0.0
 11
420.0
 21
297.0
 12
0.0
 22
0.0
 32
0.0
 14
1.0000000000E+20
 24
1.0000000000E+20
 34
1.0000000000E+20
 15
-1.0000000000E+20
 25
-1.0000000000E+20
 35
-1.0000000000E+20
146
0.0
 13
0.0
 23
0.0
 33
0.0
 16
1.0
 26
0.0
 36
0.0
 17
0.0
 27
1.0
 37
0.0
 76
     0
330
1B
  0
LAYOUT
  5
26
102
{ACAD_REACTORS
330
1A
102
}
330
1A
100
AcDbPlotSettings
  1

  2
none_device
  4

  6

 40
0.0
 41
0.0
 42
0.0
 43
0.0
 44
0.0
 45
0.0
 46
0.0
 47
0.0
 48
0.0
 49
0.0
140
0.0
141
0.0
142
1.0
143
1.0
 70
   688
 72
     1
 73
     0
 74
     5
  7

 75
    16
147
1.0
148
0.0
149
0.0
100
AcDbLayout
  1
Layout2
 70
     1
 71
     2
 10
0.0
 20
0.0
 11
0.0
 21
0.0
 12
0.0
 22
0.0
 32
0.0
 14
0.0
 24
0.0
 34
0.0
 15
0.0
 25
0.0
 35
0.0
146
0.0
 13
0.0
 23
0.0
 33
0.0
 16
1.0
 26
0.0
 36
0.0
 17
0.0
 27
1.0
 37
0.0
 76
     0
330
23
  0
LAYOUT
  5
22
102
{ACAD_REACTORS
330
1A
102
}
330
1A
100
AcDbPlotSettings
  1

  2
none_device
  4
Letter_(8.50_x_11.00_Inches)
  6

 40
6.35
 41
6.35
 42
6.35000508
 43
6.35000508
 44
215.9
 45
279.4
 46
0.0
 47
0.0
 48
0.0
 49
0.0
140
0.0
141
0.0
142
1.0
143
1.0
 70
  1712
 72
     1
 73
     0
 74
     0
  7

 75
     0
147
1.0
148
0.0
149
0.0
100
AcDbLayout
  1
Model
 70
     1
 71
     0
 10
0.0
 20
0.0
 11
279.4
 21
215.9
 12
0.0
 22
0.0
 32
0.0
 14
0.0
 24
0.0
 34
0.0
 15
279.4
 25
215.9
 35
0.0
146
0.0
 13
0.0
 23
0.0
 33
0.0
 16
1.0
 26
0.0
 36
0.0
 17
0.0
 27
1.0
 37
0.0
 76
     0
330
1F
331
29
  0
MLINESTYLE
  5
18
102
{ACAD_REACTORS
330
17
102
}
330
17
100
AcDbMlineStyle
  2
Standard
 70
     0
  3

 62
   256
 51
90.0
 52
90.0
 71
     2
 49
0.5
 62
   256
  6
BYLAYER
 49
-0.5
 62
   256
  6
BYLAYER
  0
ACDBPLACEHOLDER
  5
F
102
{ACAD_REACTORS
330
E
102
}
330
E
  0
SCALE
  5
48
102
{ACAD_REACTORS
330
47
102
}
330
47
100
AcDbScale
 70
     0
300
1:1
140
1.0
141
1.0
290
     1
  0
SCALE
  5
49
102
{ACAD_REACTORS
330
47
102
}
330
47
100
AcDbScale
 70
     0
300
1:2
140
1.0
141
2.0
290
     0
  0
SCALE
  5
4A
102
{ACAD_REACTORS
330
47
102
}
330
47
100
AcDbScale
 70
     0
300
1:4
140
1.0
141
4.0
290
     0
  0
SCALE
  5
4B
102
{ACAD_REACTORS
330
47
102
}
330
47
100
AcDbScale
 70
     0
300
1:5
140
1.0
141
5.0
290
     0
  0
SCALE
  5
4C
102
{ACAD_REACTORS
330
47
102
}
330
47
100
AcDbScale
 70
     0
300
1:8
140
1.0
141
8.0
290
     0
  0
SCALE
  5
4D
102
{ACAD_REACTORS
330
47
102
}
330
47
100
AcDbScale
 70
     0
300
1:10
140
1.0
141
10.0
290
     0
  0
SCALE
  5
4E
102
{ACAD_REACTORS
330
47
102
}
330
47
100
AcDbScale
 70
     0
300
1:16
140
1.0
141
16.0
290
     0
  0
SCALE
  5
4F
102
{ACAD_REACTORS
330
47
102
}
330
47
100
AcDbScale
 70
     0
300
1:20
140
1.0
141
20.0
290
     0
  0
SCALE
  5
50
102
{ACAD_REACTORS
330
47
102
}
330
47
100
AcDbScale
 70
     0
300
1:30
140
1.0
141
30.0
290
     0
  0
SCALE
  5
51
102
{ACAD_REACTORS
330
47
102
}
330
47
100
AcDbScale
 70
     0
300
1:40
140
1.0
141
40.0
290
     0
  0
SCALE
  5
52
102
{ACAD_REACTORS
330
47
102
}
330
47
100
AcDbScale
 70
     0
300
1:50
140
1.0
141
50.0
290
     0
  0
SCALE
  5
53
102
{ACAD_REACTORS
330
47
102
}
330
47
100
AcDbScale
 70
     0
300
1:100
140
1.0
141
100.0
290
     0
  0
SCALE
  5
54
102
{ACAD_REACTORS
330
47
102
}
330
47
100
AcDbScale
 70
     0
300
2:1
140
2.0
141
1.0
290
     0
  0
SCALE
  5
55
102
{ACAD_REACTORS
330
47
102
}
330
47
100
AcDbScale
 70
     0
300
4:1
140
4.0
141
1.0
290
     0
  0
SCALE
  5
56
102
{ACAD_REACTORS
330
47
102
}
330
47
100
AcDbScale
 70
     0
300
8:1
140
8.0
141
1.0
290
     0
  0
SCALE
  5
57
102
{ACAD_REACTORS
330
47
102
}
330
47
100
AcDbScale
 70
     0
300
10:1
140
10.0
141
1.0
290
     0
  0
SCALE
  5
58
102
{ACAD_REACTORS
330
47
102
}
330
47
100
AcDbScale
 70
     0
300
100:1
140
100.0
141
1.0
290
     0
  0
SCALE
  5
59
102
{ACAD_REACTORS
330
47
102
}
330
47
100
AcDbScale
 70
     0
300
1/128" = 1'-0"
140
0.0078125
141
12.0
290
     0
  0
SCALE
  5
5A
102
{ACAD_REACTORS
330
47
102
}
330
47
100
AcDbScale
 70
     0
300
1/64" = 1'-0"
140
0.015625
141
12.0
290
     0
  0
SCALE
  5
5B
102
{ACAD_REACTORS
330
47
102
}
330
47
100
AcDbScale
 70
     0
300
1/32" = 1'-0"
140
0.03125
141
12.0
290
     0
  0
SCALE
  5
5C
102
{ACAD_REACTORS
330
47
102
}
330
47
100
AcDbScale
 70
     0
300
1/16" = 1'-0"
140
0.0625
141
12.0
290
     0
  0
SCALE
  5
5D
102
{ACAD_REACTORS
330
47
102
}
330
47
100
AcDbScale
 70
     0
300
3/32" = 1'-0"
140
0.09375
141
12.0
290
     0
  0
SCALE
  5
5E
102
{ACAD_REACTORS
330
47
102
}
330
47
100
AcDbScale
 70
     0
300
1/8" = 1'-0"
140
0.125
141
12.0
290
     0
  0
SCALE
  5
5F
102
{ACAD_REACTORS
330
47
102
}
330
47
100
AcDbScale
 70
     0
300
3/16" = 1'-0"
140
0.1875
141
12.0
290
     0
  0
SCALE
  5
60
102
{ACAD_REACTORS
330
47
102
}
330
47
100
AcDbScale
 70
     0
300
1/4" = 1'-0"
140
0.25
141
12.0
290
     0
  0
SCALE
  5
61
102
{ACAD_REACTORS
330
47
102
}
330
47
100
AcDbScale
 70
     0
300
3/8" = 1'-0"
140
0.375
141
12.0
290
     0
  0
SCALE
  5
62
102
{ACAD_REACTORS
330
47
102
}
330
47
100
AcDbScale
 70
     0
300
1/2" = 1'-0"
140
0.5
141
12.0
290
     0
  0
SCALE
  5
63
102
{ACAD_REACTORS
330
47
102
}
330
47
100
AcDbScale
 70
     0
300
3/4" = 1'-0"
140
0.75
141
12.0
290
     0
  0
SCALE
  5
64
102
{ACAD_REACTORS
330
47
102
}
330
47
100
AcDbScale
 70
     0
300
1" = 1'-0"
140
1.0
141
12.0
290
     0
  0
SCALE
  5
65
102
{ACAD_REACTORS
330
47
102
}
330
47
100
AcDbScale
 70
     0
300
1-1/2" = 1'-0"
140
1.5
141
12.0
290
     0
  0
SCALE
  5
66
102
{ACAD_REACTORS
330
47
102
}
330
47
100
AcDbScale
 70
     0
300
3" = 1'-0"
140
3.0
141
12.0
290
     0
  0
SCALE
  5
67
102
{ACAD_REACTORS
330
47
102
}
330
47
100
AcDbScale
 70
     0
300
6" = 1'-0"
140
6.0
141
12.0
290
     0
  0
SCALE
  5
68
102
{ACAD_REACTORS
330
47
102
}
330
47
100
AcDbScale
 70
     0
300
1'-0" = 1'-0"
140
12.0
141
12.0
290
     0
  0
ENDSEC
  0
EOF
